  0
SECTION
  2
HEADER
  9
$ACADVER
  1
AC1014
  9
$ACADMAINTVER
 70
     0
  9
$DWGCODEPAGE
  3
DOS932
  9
$INSBASE
 10
0.0
 20
0.0
 30
0.0
  9
$EXTMIN
 10
0.0
 20
0.0
 30
0.0
  9
$EXTMAX
 10
21.0
 20
29.7
 30
0.0
  9
$LIMMIN
 10
0.0
 20
0.0
  9
$LIMMAX
 10
12.0
 20
9.0
  9
$ORTHOMODE
 70
     0
  9
$REGENMODE
 70
     1
  9
$FILLMODE
 70
     1
  9
$QTEXTMODE
 70
     0
  9
$MIRRTEXT
 70
     1
  9
$DRAGMODE
 70
     2
  9
$LTSCALE
 40
1.0
  9
$OSMODE
 70
     0
  9
$ATTMODE
 70
     1
  9
$TEXTSIZE
 40
0.2
  9
$TRACEWID
 40
0.05
  9
$TEXTSTYLE
  7
STANDARD
  9
$CLAYER
  8
0
  9
$CELTYPE
  6
BYLAYER
  9
$CECOLOR
 62
   256
  9
$CELTSCALE
 40
1.0
  9
$DELOBJ
 70
     1
  9
$DISPSILH
 70
     0
  9
$DIMSCALE
 40
1.0
  9
$DIMASZ
 40
0.18
  9
$DIMEXO
 40
0.0625
  9
$DIMDLI
 40
0.38
  9
$DIMRND
 40
0.0
  9
$DIMDLE
 40
0.0
  9
$DIMEXE
 40
0.18
  9
$DIMTP
 40
0.0
  9
$DIMTM
 40
0.0
  9
$DIMTXT
 40
0.18
  9
$DIMCEN
 40
0.09
  9
$DIMTSZ
 40
0.0
  9
$DIMTOL
 70
     0
  9
$DIMLIM
 70
     0
  9
$DIMTIH
 70
     0
  9
$DIMTOH
 70
     0
  9
$DIMSE1
 70
     0
  9
$DIMSE2
 70
     0
  9
$DIMTAD
 70
     1
  9
$DIMZIN
 70
     0
  9
$DIMBLK
  1

  9
$DIMASO
 70
     1
  9
$DIMSHO
 70
     1
  9
$DIMPOST
  1

  9
$DIMAPOST
  1

  9
$DIMALT
 70
     0
  9
$DIMALTD
 70
     2
  9
$DIMALTF
 40
25.4
  9
$DIMLFAC
 40
1.0
  9
$DIMTOFL
 70
     0
  9
$DIMTVP
 40
0.0
  9
$DIMTIX
 70
     0
  9
$DIMSOXD
 70
     0
  9
$DIMSAH
 70
     0
  9
$DIMBLK1
  1

  9
$DIMBLK2
  1

  9
$DIMSTYLE
  2
STANDARD
  9
$DIMCLRD
 70
     0
  9
$DIMCLRE
 70
     0
  9
$DIMCLRT
 70
     0
  9
$DIMTFAC
 40
1.0
  9
$DIMGAP
 40
0.09
  9
$DIMJUST
 70
     0
  9
$DIMSD1
 70
     0
  9
$DIMSD2
 70
     0
  9
$DIMTOLJ
 70
     1
  9
$DIMTZIN
 70
     0
  9
$DIMALTZ
 70
     0
  9
$DIMALTTZ
 70
     0
  9
$DIMFIT
 70
     3
  9
$DIMUPT
 70
     0
  9
$DIMUNIT
 70
     2
  9
$DIMDEC
 70
     2
  9
$DIMTDEC
 70
     4
  9
$DIMALTU
 70
     2
  9
$DIMALTTD
 70
     2
  9
$DIMTXSTY
  7
STANDARD
  9
$DIMAUNIT
 70
     0
  9
$LUNITS
 70
     2
  9
$LUPREC
 70
     4
  9
$SKETCHINC
 40
0.1
  9
$FILLETRAD
 40
0.5
  9
$AUNITS
 70
     0
  9
$AUPREC
 70
     0
  9
$MENU
  1
.
  9
$ELEVATION
 40
0.0
  9
$PELEVATION
 40
0.0
  9
$THICKNESS
 40
0.0
  9
$LIMCHECK
 70
     0
  9
$BLIPMODE
 70
     0
  9
$CHAMFERA
 40
0.5
  9
$CHAMFERB
 40
0.5
  9
$CHAMFERC
 40
1.0
  9
$CHAMFERD
 40
0.0
  9
$SKPOLY
 70
     0
  9
$TDCREATE
 40
2450772.666465926
  9
$TDUPDATE
 40
2456023.435439803
  9
$TDINDWG
 40
0.0011564931
  9
$TDUSRTIMER
 40
0.0000000000
  9
$USRTIMER
 70
     1
  9
$ANGBASE
 50
0.0
  9
$ANGDIR
 70
     0
  9
$PDMODE
 70
     0
  9
$PDSIZE
 40
0.0
  9
$PLINEWID
 40
0.0
  9
$COORDS
 70
     1
  9
$SPLFRAME
 70
     0
  9
$SPLINETYPE
 70
     6
  9
$SPLINESEGS
 70
     8
  9
$ATTDIA
 70
     0
  9
$ATTREQ
 70
     1
  9
$HANDLING
 70
     1
  9
$HANDSEED
  5
E0
  9
$SURFTAB1
 70
     6
  9
$SURFTAB2
 70
     6
  9
$SURFTYPE
 70
     6
  9
$SURFU
 70
     6
  9
$SURFV
 70
     6
  9
$UCSNAME
  2

  9
$UCSORG
 10
0.0
 20
0.0
 30
0.0
  9
$UCSXDIR
 10
1.0
 20
0.0
 30
0.0
  9
$UCSYDIR
 10
0.0
 20
1.0
 30
0.0
  9
$PUCSNAME
  2

  9
$PUCSORG
 10
0.0
 20
0.0
 30
0.0
  9
$PUCSXDIR
 10
1.0
 20
0.0
 30
0.0
  9
$PUCSYDIR
 10
0.0
 20
1.0
 30
0.0
  9
$USERI1
 70
     0
  9
$USERI2
 70
     0
  9
$USERI3
 70
     0
  9
$USERI4
 70
     0
  9
$USERI5
 70
     0
  9
$USERR1
 40
0.0
  9
$USERR2
 40
0.0
  9
$USERR3
 40
0.0
  9
$USERR4
 40
0.0
  9
$USERR5
 40
0.0
  9
$WORLDVIEW
 70
     1
  9
$SHADEDGE
 70
     3
  9
$SHADEDIF
 70
    70
  9
$TILEMODE
 70
     1
  9
$MAXACTVP
 70
    48
  9
$PINSBASE
 10
0.0
 20
0.0
 30
0.0
  9
$PLIMCHECK
 70
     0
  9
$PEXTMIN
 10
0.0
 20
0.0
 30
0.0
  9
$PEXTMAX
 10
0.0
 20
0.0
 30
0.0
  9
$PLIMMIN
 10
0.0
 20
0.0
  9
$PLIMMAX
 10
12.0
 20
9.0
  9
$UNITMODE
 70
     0
  9
$VISRETAIN
 70
     1
  9
$PLINEGEN
 70
     0
  9
$PSLTSCALE
 70
     1
  9
$TREEDEPTH
 70
  3020
  9
$PICKSTYLE
 70
     1
  9
$CMLSTYLE
  2
STANDARD
  9
$CMLJUST
 70
     0
  9
$CMLSCALE
 40
1.0
  9
$PROXYGRAPHICS
 70
     1
  9
$MEASUREMENT
 70
     0
  0
ENDSEC
  0
SECTION
  2
CLASSES
  0
CLASS
  1
LWPOLYLINE
  2
AcDbPolyline
  3
"AutoCAD"
 90
        0
280
     0
281
     1
  0
CLASS
  1
IMAGE
  2
AcDbRasterImage
  3
ISM
 90
      127
280
     0
281
     1
  0
CLASS
  1
OLE2FRAME
  2
AcDbOle2Frame
  3
""
 90
        0
280
     0
281
     1
  0
CLASS
  1
HATCH
  2
AcDbHatch
  3
"ACAD_SEDONA"
 90
        0
280
     0
281
     1
  0
CLASS
  1
DICTIONARYVAR
  2
AcDbDictionaryVar
  3
"AutoCAD"
 90
        0
280
     0
281
     0
  0
CLASS
  1
RASTERVARIABLES
  2
AcDbRasterVariables
  3
ISM
 90
        0
280
     0
281
     0
  0
CLASS
  1
IMAGEDEF
  2
AcDbRasterImageDef
  3
ISM
 90
        0
280
     0
281
     0
  0
CLASS
  1
IMAGEDEF_REACTOR
  2
AcDbRasterImageDefReactor
  3
ISM
 90
        1
280
     0
281
     0
  0
CLASS
  1
IDBUFFER
  2
AcDbIdBuffer
  3
"Acad"
 90
        0
280
     0
281
     0
  0
CLASS
  1
SPATIAL_FILTER
  2
AcDbSpatialFilter
  3
"Acad"
 90
        0
280
     0
281
     0
  0
CLASS
  1
XRECORD
  2
AcDbXrecord
  3
"<Built In>"
 90
        0
280
     0
281
     0
  0
CLASS
  1
SORTENTSTABLE
  2
AcDbSortentsTable
  3
"AutoCAD"
 90
        0
280
     0
281
     0
  0
CLASS
  1
LAYER_INDEX
  2
AcDbLayerIndex
  3
"Acad"
 90
        0
280
     0
281
     0
  0
CLASS
  1
SPATIAL_INDEX
  2
AcDbSpatialIndex
  3
"Acad"
 90
        0
280
     0
281
     0
  0
CLASS
  1
OBJECT_PTR
  2
CAseDLPNTableRecord
  3
"ASE-LPNTableRecord"
 90
        1
280
     0
281
     0
  0
CLASS
  1
LAYOUT
  2
AcDbLayout
  3
"AutoCAD 2000"
 90
        1
280
     0
281
     0
  0
CLASS
  1
PLOTSETTINGS
  2
AcDbPlotSettings
  3
"AutoCAD 2000"
 90
        1
280
     0
281
     0
  0
CLASS
  1
ACDBDICTIONARYWDFLT
  2
AcDbDictionaryWithDefault
  3
"AutoCAD 2000"
 90
        1
280
     0
281
     0
  0
CLASS
  1
ACDBPLACEHOLDER
  2
AcDbPlaceHolder
  3
"AutoCAD 2000"
 90
        1
280
     0
281
     0
  0
CLASS
  1
VBA_PROJECT
  2
AcDbVbaProject
  3
"acadvba"
 90
        1
280
     0
281
     0
  0
CLASS
  1
WIPEOUT
  2
AcDbWipeout
  3
WipeOut|AutoCAD Express Tool|expresstools@autodesk.com
 90
      127
280
     0
281
     1
  0
CLASS
  1
WIPEOUTVARIABLES
  2
AcDbWipeoutVariables
  3
WipeOut|AutoCAD Express Tool|expresstools@autodesk.com
 90
        0
280
     0
281
     0
  0
CLASS
  1
RTEXT
  2
RText
  3
RText|AutoCAD Express Tool|expresstools@autodesk.com
 90
        0
280
     0
281
     1
  0
CLASS
  1
ARCALIGNEDTEXT
  2
AcDbArcAlignedText
  3
ATEXT|AutoCAD Express Tool|expresstools@autodesk.com
 90
        0
280
     0
281
     1
  0
ENDSEC
  0
SECTION
  2
TABLES
  0
TABLE
  2
VPORT
  5
8
100
AcDbSymbolTable
 70
     1
  0
VPORT
  5
25
100
AcDbSymbolTableRecord
100
AcDbViewportTableRecord
  2
*ACTIVE
 70
     0
 10
0.0
 20
0.0
 11
1.0
 21
1.0
 12
10.5
 22
14.85
 13
0.0
 23
0.0
 14
0.5
 24
0.5
 15
0.5
 25
0.5
 16
0.0
 26
0.0
 36
1.0
 17
0.0
 27
0.0
 37
0.0
 40
29.7
 41
0.707071
 42
50.0
 43
0.0
 44
0.0
 50
0.0
 51
0.0
 71
     0
 72
   100
 73
     1
 74
     1
 75
     0
 76
     0
 77
     0
 78
     0
  0
ENDTAB
  0
TABLE
  2
LTYPE
  5
5
100
AcDbSymbolTable
 70
     3
  0
LTYPE
  5
12
100
AcDbSymbolTableRecord
100
AcDbLinetypeTableRecord
  2
BYBLOCK
 70
    64
  3

 72
    65
 73
     0
 40
0.0
  0
LTYPE
  5
13
100
AcDbSymbolTableRecord
100
AcDbLinetypeTableRecord
  2
BYLAYER
 70
    64
  3

 72
    65
 73
     0
 40
0.0
  0
LTYPE
  5
14
100
AcDbSymbolTableRecord
100
AcDbLinetypeTableRecord
  2
CONTINUOUS
 70
     0
  3
Solid line
 72
    65
 73
     0
 40
0.0
  0
ENDTAB
  0
TABLE
  2
LAYER
  5
2
100
AcDbSymbolTable
 70
     4
  0
LAYER
  5
E
100
AcDbSymbolTableRecord
100
AcDbLayerTableRecord
  2
0
 70
     0
 62
     7
  6
CONTINUOUS
  0
LAYER
  5
32
100
AcDbSymbolTableRecord
100
AcDbLayerTableRecord
  2
文字
 70
     0
 62
     7
  6
CONTINUOUS
  0
LAYER
  5
3B
100
AcDbSymbolTableRecord
100
AcDbLayerTableRecord
  2
枠
 70
     0
 62
     7
  6
CONTINUOUS
  0
LAYER
  5
D1
100
AcDbSymbolTableRecord
100
AcDbLayerTableRecord
  2
帳票位置
 70
     0
 62
     7
  6
CONTINUOUS
  0
ENDTAB
  0
TABLE
  2
STYLE
  5
3
100
AcDbSymbolTable
 70
     3
  0
STYLE
  5
F
100
AcDbSymbolTableRecord
100
AcDbTextStyleTableRecord
  2
STANDARD
 70
     0
 40
0.0
 41
1.0
 50
0.0
 71
     0
 42
0.2
  3
txt.shx
  4

  0
STYLE
  5
31
100
AcDbSymbolTableRecord
100
AcDbTextStyleTableRecord
  2
HORIZONTALBIGFONT
 70
     0
 40
0.0
 41
1.0
 50
0.0
 71
     0
 42
0.2
  3
txt.shx
  4
bigfont.shx
  0
STYLE
  5
39
100
AcDbSymbolTableRecord
100
AcDbTextStyleTableRecord
  2
VERTICALBIGFONT
 70
     4
 40
0.0
 41
1.0
 50
0.0
 71
     0
 42
0.2
  3
txt.shx
  4
bigfont.shx
  0
ENDTAB
  0
TABLE
  2
VIEW
  5
6
100
AcDbSymbolTable
 70
     0
  0
ENDTAB
  0
TABLE
  2
UCS
  5
7
100
AcDbSymbolTable
 70
     0
  0
ENDTAB
  0
TABLE
  2
APPID
  5
9
100
AcDbSymbolTable
 70
     1
  0
APPID
  5
10
100
AcDbSymbolTableRecord
100
AcDbRegAppTableRecord
  2
ACAD
 70
     0
  0
ENDTAB
  0
TABLE
  2
DIMSTYLE
  5
A
100
AcDbSymbolTable
 70
     1
  0
DIMSTYLE
105
1D
100
AcDbSymbolTableRecord
100
AcDbDimStyleTableRecord
  2
STANDARD
 70
     0
  3

  4

  5

  6

  7

 40
1.0
 41
0.18
 42
0.0625
 43
0.38
 44
0.18
 45
0.0
 46
0.0
 47
0.0
 48
0.0
 71
     0
 72
     0
 73
     1
 74
     1
 75
     0
 76
     0
 77
     0
 78
     0
140
0.18
141
0.09
142
0.0
143
25.4
144
1.0
145
0.0
146
1.0
147
0.09
170
     0
171
     2
172
     0
173
     0
174
     0
175
     0
176
     0
177
     0
178
     0
270
     2
271
     4
272
     4
273
     2
274
     2
275
     0
280
     0
281
     0
282
     0
283
     1
284
     0
285
     0
286
     0
287
     3
288
     0
340
F
  0
ENDTAB
  0
TABLE
  2
BLOCK_RECORD
  5
1
100
AcDbSymbolTable
 70
     3
  0
BLOCK_RECORD
  5
18
100
AcDbSymbolTableRecord
100
AcDbBlockTableRecord
  2
*MODEL_SPACE
  0
BLOCK_RECORD
  5
15
100
AcDbSymbolTableRecord
100
AcDbBlockTableRecord
  2
*PAPER_SPACE
  0
BLOCK_RECORD
  5
D4
100
AcDbSymbolTableRecord
100
AcDbBlockTableRecord
  2
名称_8
  0
BLOCK_RECORD
  5
D8
100
AcDbSymbolTableRecord
100
AcDbBlockTableRecord
  2
名称
  0
BLOCK_RECORD
  5
DC
100
AcDbSymbolTableRecord
100
AcDbBlockTableRecord
  2
数字
  0
ENDTAB
  0
ENDSEC
  0
SECTION
  2
BLOCKS
  0
BLOCK
  5
19
100
AcDbEntity
  8
0
100
AcDbBlockBegin
  2
*MODEL_SPACE
 70
     0
 10
0.0
 20
0.0
 30
0.0
  3
*MODEL_SPACE
  1

  0
ENDBLK
  5
1A
100
AcDbEntity
  8
0
100
AcDbBlockEnd
  0
BLOCK
  5
16
100
AcDbEntity
 67
     1
  8
0
100
AcDbBlockBegin
  2
*PAPER_SPACE
 70
     0
 10
0.0
 20
0.0
 30
0.0
  3
*PAPER_SPACE
  1

  0
ENDBLK
  5
17
100
AcDbEntity
 67
     1
  8
0
100
AcDbBlockEnd
  0
BLOCK
  5
D5
100
AcDbEntity
  8
0
100
AcDbBlockBegin
  2
名称_8
 70
     0
 10
0.0
 20
0.0
 30
0.0
  3
名称_8
  1

  0
MTEXT
  5
D6
100
AcDbEntity
  8
0
100
AcDbMText
 10
0.141111
 20
0.25
 30
0.0
 40
0.242534
 41
5.0
 71
     4
 72
     5
  1
\C7;\fＭＳ Ｐ明朝|b0|i0|;\H0.24253379702568;\M+196BC\M+18FCC
  7
HORIZONTALBIGFONT
  0
ENDBLK
  5
D7
100
AcDbEntity
  8
0
100
AcDbBlockEnd
  0
BLOCK
  5
D9
100
AcDbEntity
  8
0
100
AcDbBlockBegin
  2
名称
 70
     0
 10
0.0
 20
0.0
 30
0.0
  3
名称
  1

  0
MTEXT
  5
DA
100
AcDbEntity
  8
0
100
AcDbMText
 10
0.141111
 20
0.25
 30
0.0
 40
0.363805
 41
5.0
 71
     4
 72
     5
  1
\C7;\fＭＳ Ｐ明朝|b0|i0|;\H0.36380485892296;\M+196BC\M+18FCC
  7
HORIZONTALBIGFONT
  0
ENDBLK
  5
DB
100
AcDbEntity
  8
0
100
AcDbBlockEnd
  0
BLOCK
  5
DD
100
AcDbEntity
  8
0
100
AcDbBlockBegin
  2
数字
 70
     0
 10
0.0
 20
0.0
 30
0.0
  3
数字
  1

  0
MTEXT
  5
DE
100
AcDbEntity
  8
0
100
AcDbMText
 10
0.141111
 20
0.25
 30
0.0
 40
0.303169
 41
1.0
 71
     4
 72
     5
  1
\C7;\fＭＳ Ｐ明朝|b0|i0|;\H0.30316932797432;\M+19094\M+18E9A
  7
HORIZONTALBIGFONT
  0
ENDBLK
  5
DF
100
AcDbEntity
  8
0
100
AcDbBlockEnd
  0
ENDSEC
  0
SECTION
  2
ENTITIES
  0
MTEXT
  5
33
100
AcDbEntity
  8
文字
100
AcDbMText
 10
2.307778
 20
28.855
 30
0.0
 40
0.485068
 41
4.233333
 71
     4
 72
     5
  1
\C7;\H0.48506759405136;（）
  7
HORIZONTALBIGFONT
  0
MTEXT
  5
34
100
AcDbEntity
  8
文字
100
AcDbMText
 10
2.201111
 20
26.87
 30
0.0
 40
0.363805
 41
4.96
 71
     4
 72
     5
  1
\C7;\H0.36380485892296;建物名称(アパート名等)
  7
HORIZONTALBIGFONT
  0
MTEXT
  5
35
100
AcDbEntity
  8
文字
100
AcDbMText
 10
2.221111
 20
27.92
 30
0.0
 40
0.363805
 41
1.88
 71
     4
 72
     5
  1
\C7;\H0.36380485892296;装置場所
  7
HORIZONTALBIGFONT
  0
MTEXT
  5
36
100
AcDbEntity
  8
文字
100
AcDbMText
 10
8.671111
 20
28.84
 30
0.0
 40
0.515385
 41
5.37
 71
     4
 72
     5
  1
\C7;\H0.51538535952568;しゅん工図
  7
HORIZONTALBIGFONT
  0
MTEXT
  5
37
100
AcDbEntity
  8
文字
100
AcDbMText
 10
2.327279
 20
26.156667
 30
0.0
 40
0.303169
 41
2.318131
 71
     4
 72
     5
  1
\C7;\H0.30316932797432;区分
  7
HORIZONTALBIGFONT
  0
MTEXT
  5
38
100
AcDbEntity
  8
文字
100
AcDbMText
 10
15.951111
 20
22.665
 30
0.0
 40
0.363805
 41
3.5
 71
     4
 72
     5
  1
\C7;\H0.36380485892296;年月日
  7
HORIZONTALBIGFONT
  0
MTEXT
  5
3A
100
AcDbEntity
  8
文字
100
AcDbMText
 10
14.624444
 20
27.963333
 30
0.0
 40
0.303169
 41
1.04
 71
     4
 72
     5
  1
\C7;\H0.30316932797432;番号
  7
VERTICALBIGFONT
  0
LINE
  5
3C
100
AcDbEntity
  8
枠
  6
CONTINUOUS
100
AcDbLine
 10
1.925
 20
28.525
 30
0.0
 11
19.38899
 21
28.525
 31
0.0
  0
LINE
  5
3D
100
AcDbEntity
  8
枠
  6
CONTINUOUS
100
AcDbLine
 10
1.925
 20
28.525
 30
0.0
 11
1.925
 21
0.425
 31
0.0
  0
LINE
  5
3E
100
AcDbEntity
  8
枠
  6
CONTINUOUS
100
AcDbLine
 10
19.399857
 20
28.525
 30
0.0
 11
19.399857
 21
0.425
 31
0.0
  0
LINE
  5
3F
100
AcDbEntity
  8
枠
  6
CONTINUOUS
100
AcDbLine
 10
1.925
 20
0.425
 30
0.0
 11
19.38899
 21
0.425
 31
0.0
  0
LINE
  5
40
100
AcDbEntity
  8
枠
  6
CONTINUOUS
100
AcDbLine
 10
13.125
 20
26.41
 30
0.0
 11
13.125
 21
0.425
 31
0.0
  0
LINE
  5
41
100
AcDbEntity
  8
枠
  6
CONTINUOUS
100
AcDbLine
 10
1.925
 20
26.415667
 30
0.0
 11
19.38899
 21
26.415667
 31
0.0
  0
LINE
  5
42
100
AcDbEntity
  8
枠
  6
CONTINUOUS
100
AcDbLine
 10
1.925
 20
27.355
 30
0.0
 11
19.38899
 21
27.355
 31
0.0
  0
LINE
  5
43
100
AcDbEntity
  8
枠
  6
CONTINUOUS
100
AcDbLine
 10
1.925
 20
25.950333
 30
0.0
 11
19.38899
 21
25.950333
 31
0.0
  0
LINE
  5
44
100
AcDbEntity
  8
枠
  6
CONTINUOUS
100
AcDbLine
 10
1.925
 20
22.145214
 30
0.0
 11
13.125
 21
22.145214
 31
0.0
  0
LINE
  5
45
100
AcDbEntity
  8
枠
  6
CONTINUOUS
100
AcDbLine
 10
1.925
 20
20.841571
 30
0.0
 11
13.13
 21
20.841571
 31
0.0
  0
LINE
  5
46
100
AcDbEntity
  8
枠
  6
CONTINUOUS
100
AcDbLine
 10
6.4498
 20
22.144
 30
0.0
 11
6.4498
 21
9.236667
 31
0.0
  0
LINE
  5
47
100
AcDbEntity
  8
枠
  6
CONTINUOUS
100
AcDbLine
 10
6.450667
 20
21.485
 30
0.0
 11
19.4
 21
21.485
 31
0.0
  0
LINE
  5
48
100
AcDbEntity
  8
枠
  6
CONTINUOUS
100
AcDbLine
 10
7.75
 20
21.485
 30
0.0
 11
7.75
 21
9.228529
 31
0.0
  0
LINE
  5
49
100
AcDbEntity
  8
枠
  6
CONTINUOUS
100
AcDbLine
 10
9.425
 20
21.481681
 30
0.0
 11
9.425
 21
9.228529
 31
0.0
  0
LINE
  5
4A
100
AcDbEntity
  8
枠
  6
CONTINUOUS
100
AcDbLine
 10
2.39
 20
20.84
 30
0.0
 11
2.39
 21
0.423
 31
0.0
  0
LINE
  5
4B
100
AcDbEntity
  8
枠
  6
CONTINUOUS
100
AcDbLine
 10
2.405301
 20
20.454352
 30
0.0
 11
13.114757
 21
20.454352
 31
0.0
  0
LINE
  5
4C
100
AcDbEntity
  8
枠
  6
CONTINUOUS
100
AcDbLine
 10
2.405301
 20
20.067133
 30
0.0
 11
13.114757
 21
20.067133
 31
0.0
  0
LINE
  5
4D
100
AcDbEntity
  8
枠
  6
CONTINUOUS
100
AcDbLine
 10
2.405301
 20
19.679914
 30
0.0
 11
13.114757
 21
19.679914
 31
0.0
  0
LINE
  5
4E
100
AcDbEntity
  8
枠
  6
CONTINUOUS
100
AcDbLine
 10
2.405301
 20
19.292695
 30
0.0
 11
13.114757
 21
19.292695
 31
0.0
  0
LINE
  5
4F
100
AcDbEntity
  8
枠
  6
CONTINUOUS
100
AcDbLine
 10
2.405301
 20
18.905476
 30
0.0
 11
13.114757
 21
18.905476
 31
0.0
  0
LINE
  5
50
100
AcDbEntity
  8
枠
  6
CONTINUOUS
100
AcDbLine
 10
2.405301
 20
18.518257
 30
0.0
 11
13.114757
 21
18.518257
 31
0.0
  0
LINE
  5
51
100
AcDbEntity
  8
枠
  6
CONTINUOUS
100
AcDbLine
 10
2.405301
 20
18.131038
 30
0.0
 11
13.114757
 21
18.131038
 31
0.0
  0
LINE
  5
52
100
AcDbEntity
  8
枠
  6
CONTINUOUS
100
AcDbLine
 10
2.405301
 20
17.743819
 30
0.0
 11
13.114757
 21
17.743819
 31
0.0
  0
LINE
  5
53
100
AcDbEntity
  8
枠
  6
CONTINUOUS
100
AcDbLine
 10
2.405301
 20
17.3566
 30
0.0
 11
13.114757
 21
17.3566
 31
0.0
  0
LINE
  5
54
100
AcDbEntity
  8
枠
  6
CONTINUOUS
100
AcDbLine
 10
2.405301
 20
16.969381
 30
0.0
 11
13.114757
 21
16.969381
 31
0.0
  0
LINE
  5
55
100
AcDbEntity
  8
枠
  6
CONTINUOUS
100
AcDbLine
 10
2.405301
 20
16.582162
 30
0.0
 11
13.114757
 21
16.582162
 31
0.0
  0
LINE
  5
56
100
AcDbEntity
  8
枠
  6
CONTINUOUS
100
AcDbLine
 10
2.405301
 20
16.194943
 30
0.0
 11
13.114757
 21
16.194943
 31
0.0
  0
LINE
  5
57
100
AcDbEntity
  8
枠
  6
CONTINUOUS
100
AcDbLine
 10
2.405301
 20
15.807724
 30
0.0
 11
13.114757
 21
15.807724
 31
0.0
  0
LINE
  5
58
100
AcDbEntity
  8
枠
  6
CONTINUOUS
100
AcDbLine
 10
2.405301
 20
15.420505
 30
0.0
 11
13.114757
 21
15.420505
 31
0.0
  0
LINE
  5
59
100
AcDbEntity
  8
枠
  6
CONTINUOUS
100
AcDbLine
 10
2.405301
 20
15.033286
 30
0.0
 11
13.114757
 21
15.033286
 31
0.0
  0
LINE
  5
5A
100
AcDbEntity
  8
枠
  6
CONTINUOUS
100
AcDbLine
 10
2.405301
 20
14.646067
 30
0.0
 11
13.114757
 21
14.646067
 31
0.0
  0
LINE
  5
5B
100
AcDbEntity
  8
枠
  6
CONTINUOUS
100
AcDbLine
 10
2.405301
 20
14.258848
 30
0.0
 11
13.114757
 21
14.258848
 31
0.0
  0
LINE
  5
5C
100
AcDbEntity
  8
枠
  6
CONTINUOUS
100
AcDbLine
 10
2.405301
 20
13.871629
 30
0.0
 11
13.114757
 21
13.871629
 31
0.0
  0
LINE
  5
5D
100
AcDbEntity
  8
枠
  6
CONTINUOUS
100
AcDbLine
 10
2.405301
 20
13.48441
 30
0.0
 11
13.114757
 21
13.48441
 31
0.0
  0
LINE
  5
5E
100
AcDbEntity
  8
枠
  6
CONTINUOUS
100
AcDbLine
 10
2.405301
 20
13.09719
 30
0.0
 11
13.114757
 21
13.09719
 31
0.0
  0
LINE
  5
5F
100
AcDbEntity
  8
枠
  6
CONTINUOUS
100
AcDbLine
 10
2.405301
 20
12.709971
 30
0.0
 11
13.114757
 21
12.709971
 31
0.0
  0
LINE
  5
60
100
AcDbEntity
  8
枠
  6
CONTINUOUS
100
AcDbLine
 10
2.405301
 20
12.322752
 30
0.0
 11
13.114757
 21
12.322752
 31
0.0
  0
LINE
  5
61
100
AcDbEntity
  8
枠
  6
CONTINUOUS
100
AcDbLine
 10
2.405301
 20
11.935533
 30
0.0
 11
13.114757
 21
11.935533
 31
0.0
  0
LINE
  5
62
100
AcDbEntity
  8
枠
  6
CONTINUOUS
100
AcDbLine
 10
2.405301
 20
11.548314
 30
0.0
 11
13.114757
 21
11.548314
 31
0.0
  0
LINE
  5
63
100
AcDbEntity
  8
枠
  6
CONTINUOUS
100
AcDbLine
 10
2.405301
 20
11.161095
 30
0.0
 11
13.114757
 21
11.161095
 31
0.0
  0
LINE
  5
64
100
AcDbEntity
  8
枠
  6
CONTINUOUS
100
AcDbLine
 10
2.4
 20
10.773876
 30
0.0
 11
13.122857
 21
10.773876
 31
0.0
  0
LINE
  5
65
100
AcDbEntity
  8
枠
  6
CONTINUOUS
100
AcDbLine
 10
2.405301
 20
10.386657
 30
0.0
 11
13.114757
 21
10.386657
 31
0.0
  0
LINE
  5
66
100
AcDbEntity
  8
枠
  6
CONTINUOUS
100
AcDbLine
 10
2.405301
 20
9.999438
 30
0.0
 11
13.114757
 21
9.999438
 31
0.0
  0
LINE
  5
67
100
AcDbEntity
  8
枠
  6
CONTINUOUS
100
AcDbLine
 10
2.405301
 20
9.612219
 30
0.0
 11
13.114757
 21
9.612219
 31
0.0
  0
LINE
  5
68
100
AcDbEntity
  8
枠
  6
CONTINUOUS
100
AcDbLine
 10
1.94
 20
9.228529
 30
0.0
 11
13.114757
 21
9.228529
 31
0.0
  0
LINE
  5
69
100
AcDbEntity
  8
枠
  6
CONTINUOUS
100
AcDbLine
 10
2.405301
 20
8.440098
 30
0.0
 11
13.114757
 21
8.440098
 31
0.0
  0
LINE
  5
6A
100
AcDbEntity
  8
枠
  6
CONTINUOUS
100
AcDbLine
 10
2.405301
 20
8.052647
 30
0.0
 11
13.114757
 21
8.052647
 31
0.0
  0
LINE
  5
6B
100
AcDbEntity
  8
枠
  6
CONTINUOUS
100
AcDbLine
 10
2.405301
 20
7.277941
 30
0.0
 11
13.114757
 21
7.277941
 31
0.0
  0
LINE
  5
6C
100
AcDbEntity
  8
枠
  6
CONTINUOUS
100
AcDbLine
 10
2.405301
 20
6.503235
 30
0.0
 11
13.114757
 21
6.503235
 31
0.0
  0
LINE
  5
6D
100
AcDbEntity
  8
枠
  6
CONTINUOUS
100
AcDbLine
 10
2.405301
 20
5.728529
 30
0.0
 11
13.114757
 21
5.728529
 31
0.0
  0
LINE
  5
6E
100
AcDbEntity
  8
枠
  6
CONTINUOUS
100
AcDbLine
 10
2.405301
 20
4.953824
 30
0.0
 11
13.114757
 21
4.953824
 31
0.0
  0
LINE
  5
6F
100
AcDbEntity
  8
枠
  6
CONTINUOUS
100
AcDbLine
 10
2.405301
 20
4.179118
 30
0.0
 11
13.114757
 21
4.179118
 31
0.0
  0
LINE
  5
70
100
AcDbEntity
  8
枠
  6
CONTINUOUS
100
AcDbLine
 10
2.405301
 20
3.404412
 30
0.0
 11
13.114757
 21
3.404412
 31
0.0
  0
LINE
  5
71
100
AcDbEntity
  8
枠
  6
CONTINUOUS
100
AcDbLine
 10
2.405301
 20
2.629706
 30
0.0
 11
13.114757
 21
2.629706
 31
0.0
  0
LINE
  5
72
100
AcDbEntity
  8
枠
  6
CONTINUOUS
100
AcDbLine
 10
2.405301
 20
1.853431
 30
0.0
 11
13.114757
 21
1.853431
 31
0.0
  0
LINE
  5
73
100
AcDbEntity
  8
枠
  6
CONTINUOUS
100
AcDbLine
 10
2.405301
 20
2.242353
 30
0.0
 11
13.114757
 21
2.242353
 31
0.0
  0
LINE
  5
74
100
AcDbEntity
  8
枠
  6
CONTINUOUS
100
AcDbLine
 10
2.405301
 20
3.017059
 30
0.0
 11
13.114757
 21
3.017059
 31
0.0
  0
LINE
  5
75
100
AcDbEntity
  8
枠
  6
CONTINUOUS
100
AcDbLine
 10
2.405301
 20
3.791765
 30
0.0
 11
13.114757
 21
3.791765
 31
0.0
  0
LINE
  5
76
100
AcDbEntity
  8
枠
  6
CONTINUOUS
100
AcDbLine
 10
2.405301
 20
4.566471
 30
0.0
 11
13.114757
 21
4.566471
 31
0.0
  0
LINE
  5
77
100
AcDbEntity
  8
枠
  6
CONTINUOUS
100
AcDbLine
 10
2.405301
 20
5.341176
 30
0.0
 11
13.114757
 21
5.341176
 31
0.0
  0
LINE
  5
78
100
AcDbEntity
  8
枠
  6
CONTINUOUS
100
AcDbLine
 10
2.405301
 20
6.115882
 30
0.0
 11
13.114757
 21
6.115882
 31
0.0
  0
LINE
  5
79
100
AcDbEntity
  8
枠
  6
CONTINUOUS
100
AcDbLine
 10
2.405301
 20
6.890588
 30
0.0
 11
13.114757
 21
6.890588
 31
0.0
  0
LINE
  5
7A
100
AcDbEntity
  8
枠
  6
CONTINUOUS
100
AcDbLine
 10
2.405301
 20
7.665294
 30
0.0
 11
13.114757
 21
7.665294
 31
0.0
  0
LINE
  5
7B
100
AcDbEntity
  8
枠
  6
CONTINUOUS
100
AcDbLine
 10
4.8
 20
26.415
 30
0.0
 11
4.8
 21
22.155
 31
0.0
  0
LINE
  5
7C
100
AcDbEntity
  8
枠
  6
CONTINUOUS
100
AcDbLine
 10
1.925
 20
23.1
 30
0.0
 11
19.39
 21
23.1
 31
0.0
  0
LINE
  5
7D
100
AcDbEntity
  8
枠
  6
CONTINUOUS
100
AcDbLine
 10
1.925
 20
24.05
 30
0.0
 11
19.39
 21
24.05
 31
0.0
  0
LINE
  5
7E
100
AcDbEntity
  8
枠
  6
CONTINUOUS
100
AcDbLine
 10
1.925
 20
25.0055
 30
0.0
 11
19.39
 21
25.0055
 31
0.0
  0
LINE
  5
7F
100
AcDbEntity
  8
枠
  6
CONTINUOUS
100
AcDbLine
 10
13.125
 20
20.255
 30
0.0
 11
19.39
 21
20.255
 31
0.0
  0
LINE
  5
80
100
AcDbEntity
  8
枠
  6
CONTINUOUS
100
AcDbLine
 10
13.125
 20
16.405286
 30
0.0
 11
19.39
 21
16.405286
 31
0.0
  0
LINE
  5
81
100
AcDbEntity
  8
枠
  6
CONTINUOUS
100
AcDbLine
 10
13.125
 20
14.14
 30
0.0
 11
19.39
 21
14.14
 31
0.0
  0
LINE
  5
82
100
AcDbEntity
  8
枠
  6
CONTINUOUS
100
AcDbLine
 10
13.125
 20
15.272643
 30
0.0
 11
19.39
 21
15.272643
 31
0.0
  0
LINE
  5
83
100
AcDbEntity
  8
枠
  6
CONTINUOUS
100
AcDbLine
 10
13.125
 20
18.717
 30
0.0
 11
19.39
 21
18.717
 31
0.0
  0
LINE
  5
84
100
AcDbEntity
  8
枠
  6
CONTINUOUS
100
AcDbLine
 10
13.125
 20
19.5005
 30
0.0
 11
19.39
 21
19.5005
 31
0.0
  0
LINE
  5
85
100
AcDbEntity
  8
枠
  6
CONTINUOUS
100
AcDbLine
 10
14.115
 20
18.725
 30
0.0
 11
14.115
 21
16.42
 31
0.0
  0
LINE
  5
86
100
AcDbEntity
  8
枠
  6
CONTINUOUS
100
AcDbLine
 10
14.115
 20
17.1725
 30
0.0
 11
19.399857
 21
17.1725
 31
0.0
  0
LINE
  5
87
100
AcDbEntity
  8
枠
  6
CONTINUOUS
100
AcDbLine
 10
14.115
 20
17.943
 30
0.0
 11
19.399857
 21
17.943
 31
0.0
  0
LINE
  5
88
100
AcDbEntity
  8
枠
  6
CONTINUOUS
100
AcDbLine
 10
16.625
 20
16.404
 30
0.0
 11
16.625
 21
15.275
 31
0.0
  0
LINE
  5
89
100
AcDbEntity
  8
枠
  6
CONTINUOUS
100
AcDbLine
 10
13.125
 20
3.9905
 30
0.0
 11
19.4
 21
3.9905
 31
0.0
  0
LINE
  5
8A
100
AcDbEntity
  8
枠
  6
CONTINUOUS
100
AcDbLine
 10
13.125
 20
3.410294
 30
0.0
 11
19.4
 21
3.410294
 31
0.0
  0
LINE
  5
8B
100
AcDbEntity
  8
枠
  6
CONTINUOUS
100
AcDbLine
 10
13.125
 20
2.242647
 30
0.0
 11
19.4
 21
2.242647
 31
0.0
  0
LINE
  5
8C
100
AcDbEntity
  8
枠
  6
CONTINUOUS
100
AcDbLine
 10
13.125
 20
1.662353
 30
0.0
 11
19.4
 21
1.662353
 31
0.0
  0
LINE
  5
8D
100
AcDbEntity
  8
枠
  6
CONTINUOUS
100
AcDbLine
 10
14.945
 20
28.525
 30
0.0
 11
14.945
 21
27.37
 31
0.0
  0
LINE
  5
8E
100
AcDbEntity
  8
枠
  6
CONTINUOUS
100
AcDbLine
 10
14.425
 20
28.525
 30
0.0
 11
14.425
 21
27.37
 31
0.0
  0
LINE
  5
8F
100
AcDbEntity
  8
枠
  6
CONTINUOUS
100
AcDbLine
 10
14.115
 20
13.3
 30
0.0
 11
18.1275
 21
13.3
 31
0.0
  0
MTEXT
  5
90
100
AcDbEntity
  8
文字
100
AcDbMText
 10
4.371111
 20
27.92
 30
0.0
 40
0.363805
 41
1.48
 71
     4
 72
     5
  1
\C7;\H0.36380485892296;大府市
  7
HORIZONTALBIGFONT
  0
MTEXT
  5
91
100
AcDbEntity
  8
文字
100
AcDbMText
 10
7.784444
 20
27.92
 30
0.0
 40
0.363805
 41
0.57
 71
     4
 72
     5
  1
\C7;\H0.36380485892296;町
  7
HORIZONTALBIGFONT
  0
MTEXT
  5
92
100
AcDbEntity
  8
文字
100
AcDbMText
 10
12.474444
 20
27.92
 30
0.0
 40
0.363805
 41
1.086667
 71
     4
 72
     5
  1
\C7;\H0.36380485892296;番地
  7
HORIZONTALBIGFONT
  0
MTEXT
  5
93
100
AcDbEntity
  8
文字
100
AcDbMText
 10
2.138681
 20
25.661667
 30
0.0
 40
0.303169
 41
2.69243
 71
     4
 72
     5
  1
\C7;\H0.30316932797432;給水装置工事
  7
HORIZONTALBIGFONT
  0
MTEXT
  5
94
100
AcDbEntity
  8
文字
100
AcDbMText
 10
2.138681
 20
25.251667
 30
0.0
 40
0.303169
 41
2.69243
 71
     4
 72
     5
  1
\C7;\H0.30316932797432;申込者
  7
HORIZONTALBIGFONT
  0
MTEXT
  5
95
100
AcDbEntity
  8
文字
100
AcDbMText
 10
1.951111
 20
24.496667
 30
0.0
 40
0.288006
 41
3.07
 71
     4
 72
     5
  1
\C7;\H0.28800628185272;（給水装置所有者）
  7
HORIZONTALBIGFONT
  0
MTEXT
  5
96
100
AcDbEntity
  8
文字
100
AcDbMText
 10
2.146111
 20
23.546667
 30
0.0
 40
0.333487
 41
2.685
 71
     4
 72
     5
  1
\C7;\H0.33348709344864;給水使用者
  7
HORIZONTALBIGFONT
  0
MTEXT
  5
97
100
AcDbEntity
  8
文字
100
AcDbMText
 10
6.376111
 20
26.151667
 30
0.0
 40
0.303169
 41
5.425
 71
     4
 72
     5
  1
\C7;\H0.30316932797432;住所
  7
HORIZONTALBIGFONT
  0
MTEXT
  5
98
100
AcDbEntity
  8
文字
100
AcDbMText
 10
14.566111
 20
26.141667
 30
0.0
 40
0.303169
 41
3.675
 71
     4
 72
     5
  1
\C7;\H0.30316932797432;氏名
  7
HORIZONTALBIGFONT
  0
MTEXT
  5
99
100
AcDbEntity
  8
文字
100
AcDbMText
 10
14.986111
 20
28.835
 30
0.0
 40
0.303169
 41
1.625
 71
     4
 72
     5
  1
\C7;\H0.30316932797432;水栓番号
  7
HORIZONTALBIGFONT
  0
MTEXT
  5
9A
100
AcDbEntity
  8
文字
100
AcDbMText
 10
14.154444
 20
22.665
 30
0.0
 40
0.363805
 41
1.066667
 71
     4
 72
     5
  1
\C7;\H0.36380485892296;平成
  7
HORIZONTALBIGFONT
  0
MTEXT
  5
9B
100
AcDbEntity
  8
文字
100
AcDbMText
 10
13.324444
 20
22.266667
 30
0.0
 40
0.363805
 41
1.066667
 71
     4
 72
     5
  1
\C7;\H0.36380485892296;受付
  7
HORIZONTALBIGFONT
  0
MTEXT
  5
9C
100
AcDbEntity
  8
文字
100
AcDbMText
 10
14.174444
 20
21.833333
 30
0.0
 40
0.363805
 41
5.268333
 71
     4
 72
     5
  1
\C7;\H0.36380485892296;第号
  7
HORIZONTALBIGFONT
  0
MTEXT
  5
9D
100
AcDbEntity
  8
文字
100
AcDbMText
 10
15.582778
 20
20.625
 30
0.0
 40
0.303169
 41
3.768333
 71
     4
 72
     5
  1
\C7;\H0.30316932797432;年月日
  7
HORIZONTALBIGFONT
  0
MTEXT
  5
9E
100
AcDbEntity
  8
文字
100
AcDbMText
 10
13.349444
 20
20.616667
 30
0.0
 40
0.303169
 41
1.141667
 71
     4
 72
     5
  1
\C7;\H0.30316932797432;平成
  7
HORIZONTALBIGFONT
  0
MTEXT
  5
9F
100
AcDbEntity
  8
文字
100
AcDbMText
 10
15.141111
 20
21.108333
 30
0.0
 40
0.303169
 41
2.52
 71
     4
 72
     5
  1
\C7;\H0.30316932797432;工事承認年月日
  7
HORIZONTALBIGFONT
  0
MTEXT
  5
A0
100
AcDbEntity
  8
文字
100
AcDbMText
 10
16.251111
 20
19.84
 30
0.0
 40
0.363805
 41
3.15
 71
     4
 72
     5
  1
\C7;\H0.36380485892296;年月日
  7
HORIZONTALBIGFONT
  0
MTEXT
  5
A1
100
AcDbEntity
  8
文字
100
AcDbMText
 10
13.374444
 20
19.858333
 30
0.0
 40
0.303169
 41
1.666667
 71
     4
 72
     5
  1
\C7;\H0.30316932797432;工事着手
  7
HORIZONTALBIGFONT
  0
MTEXT
  5
A2
100
AcDbEntity
  8
文字
100
AcDbMText
 10
16.251111
 20
19.058333
 30
0.0
 40
0.363805
 41
3.15
 71
     4
 72
     5
  1
\C7;\H0.36380485892296;年月日
  7
HORIZONTALBIGFONT
  0
MTEXT
  5
A3
100
AcDbEntity
  8
文字
100
AcDbMText
 10
13.357778
 20
19.075
 30
0.0
 40
0.318324
 41
1.683333
 71
     4
 72
     5
  1
\C7;\H0.31832404732704;工事竣工
  7
HORIZONTALBIGFONT
  0
MTEXT
  5
A4
100
AcDbEntity
  8
文字
100
AcDbMText
 10
16.251111
 20
18.29
 30
0.0
 40
0.363805
 41
3.15
 71
     4
 72
     5
  1
\C7;\H0.36380485892296;年月日
  7
HORIZONTALBIGFONT
  0
MTEXT
  5
A5
100
AcDbEntity
  8
文字
100
AcDbMText
 10
14.366111
 20
18.311667
 30
0.0
 40
0.318324
 41
0.985
 71
     4
 72
     5
  1
\C7;\H0.31832404732704;取付
  7
HORIZONTALBIGFONT
  0
MTEXT
  5
A6
100
AcDbEntity
  8
文字
100
AcDbMText
 10
14.341111
 20
17.541667
 30
0.0
 40
0.318324
 41
1.0
 71
     4
 72
     5
  1
\C7;\H0.31832404732704;口径
  7
HORIZONTALBIGFONT
  0
MTEXT
  5
A7
100
AcDbEntity
  8
文字
100
AcDbMText
 10
13.551111
 20
17.5675
 30
0.0
 40
0.303169
 41
1.995
 71
     4
 72
     5
  1
\C7;\H0.30316932797432;量水器
  7
VERTICALBIGFONT
  0
MTEXT
  5
A8
100
AcDbEntity
  8
文字
100
AcDbMText
 10
14.376111
 20
16.741667
 30
0.0
 40
0.318324
 41
1.945
 71
     4
 72
     5
  1
\C7;\H0.31832404732704;メータＮＯ．
  7
HORIZONTALBIGFONT
  0
MTEXT
  5
A9
100
AcDbEntity
  8
文字
100
AcDbMText
 10
14.256111
 20
16.101667
 30
0.0
 40
0.318324
 41
0.985
 71
     4
 72
     5
  1
\C7;\H0.31832404732704;口径
  7
HORIZONTALBIGFONT
  0
MTEXT
  5
AA
100
AcDbEntity
  8
文字
100
AcDbMText
 10
13.381111
 20
15.821667
 30
0.0
 40
0.318324
 41
0.96
 71
     4
 72
     5
  1
\C7;\H0.31832404732704;本管
  7
HORIZONTALBIGFONT
  0
MTEXT
  5
AB
100
AcDbEntity
  8
文字
100
AcDbMText
 10
14.251111
 20
15.531667
 30
0.0
 40
0.318324
 41
0.99
 71
     4
 72
     5
  1
\C7;\H0.31832404732704;管種
  7
HORIZONTALBIGFONT
  0
MTEXT
  5
AC
100
AcDbEntity
  8
文字
100
AcDbMText
 10
15.861111
 20
16.201667
 30
0.0
 40
0.303169
 41
0.57
 71
     4
 72
     5
  1
\C7;\H0.30316932797432;m
  7
HORIZONTALBIGFONT
  0
MTEXT
  5
AD
100
AcDbEntity
  8
文字
100
AcDbMText
 10
15.461111
 20
16.091667
 30
0.0
 40
0.303169
 41
1.54
 71
     4
 72
     5
  1
\C7;\H0.30316932797432;（）
  7
HORIZONTALBIGFONT
  0
MTEXT
  5
AE
100
AcDbEntity
  8
文字
100
AcDbMText
 10
16.001111
 20
16.061667
 30
0.0
 40
0.363805
 41
0.57
 71
     4
 72
     5
  1
\C7;\H0.36380485892296;/
  7
HORIZONTALBIGFONT
  0
MTEXT
  5
AF
100
AcDbEntity
  8
文字
100
AcDbMText
 10
16.186111
 20
15.931667
 30
0.0
 40
0.303169
 41
0.57
 71
     4
 72
     5
  1
\C7;\H0.30316932797432;m
  7
HORIZONTALBIGFONT
  0
MTEXT
  5
B0
100
AcDbEntity
  8
文字
100
AcDbMText
 10
16.799444
 20
15.816667
 30
0.0
 40
0.318324
 41
1.321667
 71
     4
 72
     5
  1
\C7;\H0.31832404732704;受水槽
  7
HORIZONTALBIGFONT
  0
MTEXT
  5
B1
100
AcDbEntity
  8
文字
100
AcDbMText
 10
18.182778
 20
15.816667
 30
0.0
 40
0.318324
 41
1.358333
 71
     4
 72
     5
  1
\C7;\H0.31832404732704;有・無
  7
HORIZONTALBIGFONT
  0
MTEXT
  5
B2
100
AcDbEntity
  8
文字
100
AcDbMText
 10
16.341111
 20
14.956667
 30
0.0
 40
0.333487
 41
3.1
 71
     4
 72
     5
  1
\C7;\H0.33348709344864;年月日
  7
HORIZONTALBIGFONT
  0
MTEXT
  5
B3
100
AcDbEntity
  8
文字
100
AcDbMText
 10
13.366111
 20
14.681667
 30
0.0
 40
0.318324
 41
1.675
 71
     4
 72
     5
  1
\C7;\H0.31832404732704;工事検査
  7
HORIZONTALBIGFONT
  0
MTEXT
  5
B4
100
AcDbEntity
  8
文字
100
AcDbMText
 10
15.166111
 20
14.401667
 30
0.0
 40
0.318324
 41
0.965
 71
     4
 72
     5
  1
\C7;\H0.31832404732704;氏名
  7
HORIZONTALBIGFONT
  0
MTEXT
  5
B5
100
AcDbEntity
  8
文字
100
AcDbMText
 10
14.376111
 20
13.636667
 30
0.0
 40
0.363805
 41
3.905
 71
     4
 72
     5
  1
\C7;\H0.36380485892296;附近見取図
  7
HORIZONTALBIGFONT
  0
MTEXT
  5
B6
100
AcDbEntity
  8
文字
100
AcDbMText
 10
2.741111
 20
21.461667
 30
0.0
 40
0.363805
 41
3.15
 71
     4
 72
     5
  1
\C7;\H0.36380485892296;品名
  7
HORIZONTALBIGFONT
  0
MTEXT
  5
B7
100
AcDbEntity
  8
文字
100
AcDbMText
 10
2.124444
 20
22.583333
 30
0.0
 40
0.333487
 41
2.686667
 71
     4
 72
     5
  1
\C7;\H0.33348709344864;用途
  7
HORIZONTALBIGFONT
  0
MTEXT
  5
B8
100
AcDbEntity
  8
文字
100
AcDbMText
 10
6.736111
 20
21.136667
 30
0.0
 40
0.303169
 41
0.97
 71
     4
 72
     5
  1
\C7;\H0.30316932797432;数量
  7
HORIZONTALBIGFONT
  0
MTEXT
  5
B9
100
AcDbEntity
  8
文字
100
AcDbMText
 10
10.907778
 20
21.15
 30
0.0
 40
0.303169
 41
0.973333
 71
     4
 72
     5
  1
\C7;\H0.30316932797432;金額
  7
HORIZONTALBIGFONT
  0
MTEXT
  5
BA
100
AcDbEntity
  8
文字
100
AcDbMText
 10
8.232778
 20
21.141667
 30
0.0
 40
0.303169
 41
0.97
 71
     4
 72
     5
  1
\C7;\H0.30316932797432;単価
  7
HORIZONTALBIGFONT
  0
MTEXT
  5
BB
100
AcDbEntity
  8
文字
100
AcDbMText
 10
2.091111
 20
15.059167
 30
0.0
 40
0.272852
 41
7.578333
 71
     4
 72
     5
  1
\C7;\H0.2728515625;道路取付工事費
  7
VERTICALBIGFONT
  0
MTEXT
  5
BC
100
AcDbEntity
  8
文字
100
AcDbMText
 10
2.082778
 20
4.81
 30
0.0
 40
0.272852
 41
5.28
 71
     4
 72
     5
  1
\C7;\H0.2728515625;屋内工事費
  7
VERTICALBIGFONT
  0
MTEXT
  5
BD
100
AcDbEntity
  8
文字
100
AcDbMText
 10
13.799444
 20
3.675
 30
0.0
 40
0.333487
 41
4.751667
 71
     4
 72
     5
  1
\C7;\H0.33348709344864;指定給水装置工事事業者名
  7
HORIZONTALBIGFONT
  0
MTEXT
  5
BE
100
AcDbEntity
  8
文字
100
AcDbMText
 10
13.816111
 20
1.916667
 30
0.0
 40
0.333487
 41
4.735
 71
     4
 72
     5
  1
\C7;\H0.33348709344864;給水装置工事主任技術者名
  7
HORIZONTALBIGFONT
  0
LINE
  5
BF
100
AcDbEntity
  8
枠
  6
CONTINUOUS
100
AcDbLine
 10
11.825
 20
9.15
 30
0.0
 11
11.825
 21
2.248333
 31
0.0
  0
LINE
  5
C0
100
AcDbEntity
  8
枠
  6
CONTINUOUS
100
AcDbLine
 10
1.94
 20
9.15
 30
0.0
 11
13.114757
 21
9.15
 31
0.0
  0
LINE
  5
C1
100
AcDbEntity
  8
枠
  6
CONTINUOUS
100
AcDbLine
 10
7.75
 20
9.15
 30
0.0
 11
7.75
 21
2.242353
 31
0.0
  0
LINE
  5
C2
100
AcDbEntity
  8
枠
  6
CONTINUOUS
100
AcDbLine
 10
6.4498
 20
9.15
 30
0.0
 11
6.4498
 21
2.242353
 31
0.0
  0
MTEXT
  5
C3
100
AcDbEntity
  8
文字
100
AcDbMText
 10
4.882778
 20
22.583333
 30
0.0
 40
0.303169
 41
1.658333
 71
     4
 72
     5
  1
\C7;\H0.30316932797432;一般住宅
  7
HORIZONTALBIGFONT
  0
MTEXT
  5
C4
100
AcDbEntity
  8
文字
100
AcDbMText
 10
6.641111
 20
22.583333
 30
0.0
 40
0.303169
 41
1.658333
 71
     4
 72
     5
  1
\C7;\H0.30316932797432;共同住宅
  7
HORIZONTALBIGFONT
  0
MTEXT
  5
C5
100
AcDbEntity
  8
文字
100
AcDbMText
 10
8.066111
 20
22.583333
 30
0.0
 40
0.303169
 41
2.025
 71
     4
 72
     5
  1
\C7;\H0.30316932797432;（）
  7
HORIZONTALBIGFONT
  0
MTEXT
  5
C6
100
AcDbEntity
  8
文字
100
AcDbMText
 10
10.182778
 20
22.583333
 30
0.0
 40
0.303169
 41
1.318333
 71
     4
 72
     5
  1
\C7;\H0.30316932797432;その他
  7
HORIZONTALBIGFONT
  0
MTEXT
  5
C7
100
AcDbEntity
  8
文字
100
AcDbMText
 10
11.257778
 20
22.583333
 30
0.0
 40
0.303169
 41
2.025
 71
     4
 72
     5
  1
\C7;\H0.30316932797432;（）
  7
HORIZONTALBIGFONT
  0
MTEXT
  5
C8
100
AcDbEntity
  8
文字
100
AcDbMText
 10
9.831111
 20
22.583333
 30
0.0
 40
0.303169
 41
0.551667
 71
     4
 72
     5
  1
\C7;\H0.30316932797432;・
  7
HORIZONTALBIGFONT
  0
MTEXT
  5
C9
100
AcDbEntity
  8
文字
100
AcDbMText
 10
6.291111
 20
22.583333
 30
0.0
 40
0.303169
 41
0.551667
 71
     4
 72
     5
  1
\C7;\H0.30316932797432;・
  7
HORIZONTALBIGFONT
  0
MTEXT
  5
CA
100
AcDbEntity
  8
文字
100
AcDbMText
 10
8.307778
 20
21.783333
 30
0.0
 40
0.363805
 41
3.193333
 71
     4
 72
     5
  1
\C7;\H0.36380485892296;工事費内訳
  7
HORIZONTALBIGFONT
  0
MTEXT
  5
CB
100
AcDbEntity
  8
文字
100
AcDbMText
 10
4.082778
 20
8.766667
 30
0.0
 40
0.303169
 41
0.938333
 71
     4
 72
     5
  1
\C7;\H0.30316932797432;品名
  7
HORIZONTALBIGFONT
  0
MTEXT
  5
CC
100
AcDbEntity
  8
文字
100
AcDbMText
 10
6.782778
 20
8.775
 30
0.0
 40
0.272852
 41
0.878333
 71
     4
 72
     5
  1
\C7;\H0.2728515625;数量
  7
HORIZONTALBIGFONT
  0
MTEXT
  5
CD
100
AcDbEntity
  8
文字
100
AcDbMText
 10
9.454444
 20
8.76
 30
0.0
 40
0.303169
 41
0.938333
 71
     4
 72
     5
  1
\C7;\H0.30316932797432;品名
  7
HORIZONTALBIGFONT
  0
MTEXT
  5
CE
100
AcDbEntity
  8
文字
100
AcDbMText
 10
12.154444
 20
8.768333
 30
0.0
 40
0.272852
 41
0.878333
 71
     4
 72
     5
  1
\C7;\H0.2728515625;数量
  7
HORIZONTALBIGFONT
  0
MTEXT
  5
CF
100
AcDbEntity
  8
文字
100
AcDbMText
 10
4.916111
 20
2.025
 30
0.0
 40
0.303169
 41
5.925
 71
     4
 72
     5
  1
\C7;\H0.30316932797432;特記事項
  7
HORIZONTALBIGFONT
  0
LINE
  5
D2
102
{ACAD_REACTORS
330
D0
102
}
100
AcDbEntity
  8
帳票位置
  6
CONTINUOUS
100
AcDbLine
 10
2.35
 20
20.883333
 30
0.0
 11
2.43
 21
20.803333
 31
0.0
  0
LINE
  5
D3
102
{ACAD_REACTORS
330
D0
102
}
100
AcDbEntity
  8
帳票位置
  6
CONTINUOUS
100
AcDbLine
 10
2.43
 20
20.883333
 30
0.0
 11
2.35
 21
20.803333
 31
0.0
  0
ENDSEC
  0
SECTION
  2
OBJECTS
  0
DICTIONARY
  5
C
100
AcDbDictionary
  3
ACAD_GROUP
350
D
  3
ACAD_MLINESTYLE
350
1B
  0
DICTIONARY
  5
D
102
{ACAD_REACTORS
330
C
102
}
100
AcDbDictionary
  3
VISIOGROUP_0
350
D0
  0
DICTIONARY
  5
1B
102
{ACAD_REACTORS
330
C
102
}
100
AcDbDictionary
  3
STANDARD
350
1C
  0
MLINESTYLE
  5
1C
102
{ACAD_REACTORS
330
1B
102
}
100
AcDbMlineStyle
  2
STANDARD
 70
     0
  3

 62
   256
 51
90.0
 52
90.0
 71
     2
 49
0.5
 62
   256
  6
BYLAYER
 49
-0.5
 62
   256
  6
BYLAYER
  0
GROUP
  5
D0
102
{ACAD_REACTORS
330
D
102
}
100
AcDbGroup
300
Group created by Visio.
 70
     0
 71
     1
340
D2
340
D3
  0
ENDSEC
  0
EOF

